999
dxflib 2.0.4.8
  0
SECTION
  2
HEADER
  9
$ACADVER
  1
AC1015
  9
$HANDSEED
  5
FFFF
  9
$DIMASZ
 40
2.5
  9
$EXTMIN
 10
70.1640148931056729
 20
112.369642808921995
 30
0.0
  9
$DIMGAP
 40
0.625
  9
$MEASUREMENT
 70
0
  9
$INSUNITS
 70
4
  9
$DIMEXO
 40
0.625
  9
$EXTMAX
 10
277.0834797641999216
 20
227.1366601424358009
 30
0.0
  9
$DIMTXT
 40
2.5
  9
$DIMSTYLE
  2
Standard
  9
$PLIMMIN
 10
0.0
 20
0.0
  9
$PLIMMAX
 10
210.0
 20
297.0
  9
$PINSBASE
 10
43.4936170212765632
 20
47.3425531914893156
 30
0.0
  9
$DIMEXE
 40
1.25
  0
ENDSEC
  0
SECTION
  2
TABLES
  0
TABLE
  2
VPORT
  5
8
100
AcDbSymbolTable
 70
1
  0
VPORT
  5
30
100
AcDbSymbolTableRecord
100
AcDbViewportTableRecord
  2
*Active
 70
0
 10
0.0
 20
0.0
 11
1.0
 21
1.0
 12
286.3055555555554861
 22
148.5
 13
0.0
 23
0.0
 14
10.0
 24
10.0
 15
10.0
 25
10.0
 16
0.0
 26
0.0
 36
1.0
 17
0.0
 27
0.0
 37
0.0
 40
297.0
 41
1.92798353909465
 42
50.0
 43
0.0
 44
0.0
 50
0.0
 51
0.0
 71
0
 72
100
 73
1
 74
3
 75
1
 76
1
 77
0
 78
0
281
0
 65
1
110
0.0
120
0.0
130
0.0
111
1.0
121
0.0
131
0.0
112
0.0
122
1.0
132
0.0
 79
0
146
0.0
  0
ENDTAB
  0
TABLE
  2
LTYPE
  5
5
100
AcDbSymbolTable
 70
21
  0
LTYPE
  5
14
100
AcDbSymbolTableRecord
100
AcDbLinetypeTableRecord
  2
ByBlock
 70
0
  3

 72
65
 73
0
 40
0.0
  0
LTYPE
  5
15
100
AcDbSymbolTableRecord
100
AcDbLinetypeTableRecord
  2
ByLayer
 70
0
  3

 72
65
 73
0
 40
0.0
  0
LTYPE
  5
16
100
AcDbSymbolTableRecord
100
AcDbLinetypeTableRecord
  2
CONTINUOUS
 70
0
  3
Solid line
 72
65
 73
0
 40
0.0
  0
LTYPE
  5
31
100
AcDbSymbolTableRecord
100
AcDbLinetypeTableRecord
  2
DOT
 70
0
  3
Dot . . . . . . . . . . . . . . . . . . . . . .
 72
65
 73
2
 40
6.3499999999999996
 49
0.0
 74
0
 49
-6.3499999999999996
 74
0
  0
LTYPE
  5
32
100
AcDbSymbolTableRecord
100
AcDbLinetypeTableRecord
  2
DOT2
 70
0
  3
Dot (.5x) .....................................
 72
65
 73
2
 40
3.1749999999999998
 49
0.0
 74
0
 49
-3.1749999999999998
 74
0
  0
LTYPE
  5
33
100
AcDbSymbolTableRecord
100
AcDbLinetypeTableRecord
  2
DOTX2
 70
0
  3
Dot (2x) .  .  .  .  .  .  .  .  .  .  .  .  .
 72
65
 73
2
 40
12.6999999999999993
 49
0.0
 74
0
 49
-12.6999999999999993
 74
0
  0
LTYPE
  5
34
100
AcDbSymbolTableRecord
100
AcDbLinetypeTableRecord
  2
DASHED
 70
0
  3
Dashed __ __ __ __ __ __ __ __ __ __ __ __ __ _
 72
65
 73
2
 40
19.0500000000000007
 49
12.6999999999999993
 74
0
 49
-6.3499999999999996
 74
0
  0
LTYPE
  5
35
100
AcDbSymbolTableRecord
100
AcDbLinetypeTableRecord
  2
DASHED2
 70
0
  3
Dashed (.5x) _ _ _ _ _ _ _ _ _ _ _ _ _ _ _ _ _
 72
65
 73
2
 40
9.5250000000000004
 49
6.3499999999999996
 74
0
 49
-3.1749999999999998
 74
0
  0
LTYPE
  5
36
100
AcDbSymbolTableRecord
100
AcDbLinetypeTableRecord
  2
DASHEDX2
 70
0
  3
Dashed (2x) ____  ____  ____  ____  ____  ___
 72
65
 73
2
 40
38.1000000000000014
 49
25.3999999999999986
 74
0
 49
-12.6999999999999993
 74
0
  0
LTYPE
  5
37
100
AcDbSymbolTableRecord
100
AcDbLinetypeTableRecord
  2
DASHDOT
 70
0
  3
Dash dot __ . __ . __ . __ . __ . __ . __ . __
 72
65
 73
4
 40
25.3999999999999986
 49
12.6999999999999993
 74
0
 49
-6.3499999999999996
 74
0
 49
0.0
 74
0
 49
-6.3499999999999996
 74
0
  0
LTYPE
  5
38
100
AcDbSymbolTableRecord
100
AcDbLinetypeTableRecord
  2
DASHDOT2
 70
0
  3
Dash dot (.5x) _._._._._._._._._._._._._._._.
 72
65
 73
4
 40
12.6999999999999993
 49
6.3499999999999996
 74
0
 49
-3.1749999999999998
 74
0
 49
0.0
 74
0
 49
-3.1749999999999998
 74
0
  0
LTYPE
  5
39
100
AcDbSymbolTableRecord
100
AcDbLinetypeTableRecord
  2
DASHDOTX2
 70
0
  3
Dash dot (2x) ____  .  ____  .  ____  .  ___
 72
65
 73
4
 40
50.7999999999999972
 49
25.3999999999999986
 74
0
 49
-12.6999999999999993
 74
0
 49
0.0
 74
0
 49
-12.6999999999999993
 74
0
  0
LTYPE
  5
3A
100
AcDbSymbolTableRecord
100
AcDbLinetypeTableRecord
  2
DIVIDE
 70
0
  3
Divide ____ . . ____ . . ____ . . ____ . . ____
 72
65
 73
6
 40
31.75
 49
12.6999999999999993
 74
0
 49
-6.3499999999999996
 74
0
 49
0.0
 74
0
 49
-6.3499999999999996
 74
0
 49
0.0
 74
0
 49
-6.3499999999999996
 74
0
  0
LTYPE
  5
3B
100
AcDbSymbolTableRecord
100
AcDbLinetypeTableRecord
  2
DIVIDE2
 70
0
  3
Divide (.5x) __..__..__..__..__..__..__..__.._
 72
65
 73
6
 40
15.875
 49
6.3499999999999996
 74
0
 49
-3.1749999999999998
 74
0
 49
0.0
 74
0
 49
-3.1749999999999998
 74
0
 49
0.0
 74
0
 49
-3.1749999999999998
 74
0
  0
LTYPE
  5
3C
100
AcDbSymbolTableRecord
100
AcDbLinetypeTableRecord
  2
DIVIDEX2
 70
0
  3
Divide (2x) ________  .  .  ________  .  .  _
 72
65
 73
6
 40
63.5
 49
25.3999999999999986
 74
0
 49
-12.6999999999999993
 74
0
 49
0.0
 74
0
 49
-12.6999999999999993
 74
0
 49
0.0
 74
0
 49
-12.6999999999999993
 74
0
  0
LTYPE
  5
3D
100
AcDbSymbolTableRecord
100
AcDbLinetypeTableRecord
  2
CENTER
 70
0
  3
Center ____ _ ____ _ ____ _ ____ _ ____ _ ____
 72
65
 73
4
 40
50.7999999999999972
 49
31.75
 74
0
 49
-6.3499999999999996
 74
0
 49
6.3499999999999996
 74
0
 49
-6.3499999999999996
 74
0
  0
LTYPE
  5
3E
100
AcDbSymbolTableRecord
100
AcDbLinetypeTableRecord
  2
CENTER2
 70
0
  3
Center (.5x) ___ _ ___ _ ___ _ ___ _ ___ _ ___
 72
65
 73
4
 40
28.5749999999999993
 49
19.0500000000000007
 74
0
 49
-3.1749999999999998
 74
0
 49
3.1749999999999998
 74
0
 49
-3.1749999999999998
 74
0
  0
LTYPE
  5
3F
100
AcDbSymbolTableRecord
100
AcDbLinetypeTableRecord
  2
CENTERX2
 70
0
  3
Center (2x) ________  __  ________  __  _____
 72
65
 73
4
 40
101.5999999999999943
 49
63.5
 74
0
 49
-12.6999999999999993
 74
0
 49
12.6999999999999993
 74
0
 49
-12.6999999999999993
 74
0
  0
LTYPE
  5
40
100
AcDbSymbolTableRecord
100
AcDbLinetypeTableRecord
  2
BORDER
 70
0
  3
Border __ __ . __ __ . __ __ . __ __ . __ __ .
 72
65
 73
6
 40
44.4500000000000028
 49
12.6999999999999993
 74
0
 49
-6.3499999999999996
 74
0
 49
12.6999999999999993
 74
0
 49
-6.3499999999999996
 74
0
 49
0.0
 74
0
 49
-6.3499999999999996
 74
0
  0
LTYPE
  5
41
100
AcDbSymbolTableRecord
100
AcDbLinetypeTableRecord
  2
BORDER2
 70
0
  3
Border (.5x) __.__.__.__.__.__.__.__.__.__.__.
 72
65
 73
6
 40
22.2250000000000014
 49
6.3499999999999996
 74
0
 49
-3.1749999999999998
 74
0
 49
6.3499999999999996
 74
0
 49
-3.1749999999999998
 74
0
 49
0.0
 74
0
 49
-3.1749999999999998
 74
0
  0
LTYPE
  5
42
100
AcDbSymbolTableRecord
100
AcDbLinetypeTableRecord
  2
BORDERX2
 70
0
  3
Border (2x) ____  ____  .  ____  ____  .  ___
 72
65
 73
6
 40
88.9000000000000057
 49
25.3999999999999986
 74
0
 49
-12.6999999999999993
 74
0
 49
25.3999999999999986
 74
0
 49
-12.6999999999999993
 74
0
 49
0.0
 74
0
 49
-12.6999999999999993
 74
0
  0
ENDTAB
  0
TABLE
  2
LAYER
  5
2
100
AcDbSymbolTable
 70
1
  0
LAYER
  5
10
100
AcDbSymbolTableRecord
100
AcDbLayerTableRecord
  2
0
 70
0
 62
7
  6
CONTINUOUS
390
F
  0
ENDTAB
  0
TABLE
  2
STYLE
  5
3
100
AcDbSymbolTable
 70
1
  0
STYLE
  5
11
100
AcDbSymbolTableRecord
100
AcDbTextStyleTableRecord
  2
Standard
 70
0
 40
0.0
 41
0.75
 50
0.0
 71
0
 42
2.5
  3
txt
  4

  0
ENDTAB
  0
TABLE
  2
VIEW
  5
6
100
AcDbSymbolTable
 70
0
  0
ENDTAB
  0
TABLE
  2
UCS
  5
7
100
AcDbSymbolTable
 70
0
  0
ENDTAB
  0
TABLE
  2
APPID
  5
9
100
AcDbSymbolTable
 70
1
  0
APPID
  5
12
100
AcDbSymbolTableRecord
100
AcDbRegAppTableRecord
  2
ACAD
 70
0
  0
ENDTAB
  0
TABLE
  2
DIMSTYLE
  5
A
100
AcDbSymbolTable
 70
1
100
AcDbDimStyleTable
 71
0
  0
DIMSTYLE
105
27
100
AcDbSymbolTableRecord
100
AcDbDimStyleTableRecord
  2
Standard
 41
2.5
 42
0.625
 43
3.75
 44
1.25
 70
0
 73
0
 74
0
 77
1
 78
8
140
2.5
141
2.5
143
0.03937007874016
147
0.625
171
3
172
1
271
2
272
2
274
3
278
44
283
0
284
8
340
11
  0
ENDTAB
  0
TABLE
  2
BLOCK_RECORD
  5
1
100
AcDbSymbolTable
 70
1
  0
BLOCK_RECORD
  5
1F
100
AcDbSymbolTableRecord
100
AcDbBlockTableRecord
  2
*Model_Space
340
22
  0
BLOCK_RECORD
  5
1B
100
AcDbSymbolTableRecord
100
AcDbBlockTableRecord
  2
*Paper_Space
340
1E
  0
BLOCK_RECORD
  5
23
100
AcDbSymbolTableRecord
100
AcDbBlockTableRecord
  2
*Paper_Space0
340
26
  0
ENDTAB
  0
ENDSEC
  0
SECTION
  2
BLOCKS
  0
BLOCK
  5
20
100
AcDbEntity
  8
0
100
AcDbBlockBegin
  2
*Model_Space
 70
0
 10
0.0
 20
0.0
 30
0.0
  3
*Model_Space
  1

  0
ENDBLK
  5
21
100
AcDbEntity
  8
0
100
AcDbBlockEnd
  0
BLOCK
  5
1C
100
AcDbEntity
 67
1
  8
0
100
AcDbBlockBegin
  2
*Paper_Space
 70
0
 10
0.0
 20
0.0
 30
0.0
  3
*Paper_Space
  1

  0
ENDBLK
  5
1D
100
AcDbEntity
 67
1
  8
0
100
AcDbBlockEnd
  0
BLOCK
  5
24
100
AcDbEntity
  8
0
100
AcDbBlockBegin
  2
*Paper_Space0
 70
0
 10
0.0
 20
0.0
 30
0.0
  3
*Paper_Space0
  1

  0
ENDBLK
  5
25
100
AcDbEntity
  8
0
100
AcDbBlockEnd
  0
ENDSEC
  0
SECTION
  2
ENTITIES
  0
SPLINE
  5
43
  8
0
 62
0
370
-1
  6
ByLayer
100
AcDbEntity
100
AcDbSpline
 70
8
 71
3
 72
8
 73
4
 74
0
 40
0.0
 40
0.0
 40
0.0
 40
0.0
 40
1.0
 40
1.0
 40
1.0
 40
1.0
 10
-4.5922199999999993
 20
5.8431999999999995
 30
0.0
 10
-4.490219999999999
 20
5.8431999999999995
 30
0.0
 10
-4.0746599999999997
 20
5.6043999999999983
 30
0.0
 10
-3.3465800000000003
 20
5.1257999999999981
 30
0.0
  0
SPLINE
  5
44
  8
0
 62
0
370
-1
  6
ByLayer
100
AcDbEntity
100
AcDbSpline
 70
8
 71
3
 72
8
 73
4
 74
0
 40
0.0
 40
0.0
 40
0.0
 40
0.0
 40
1.0
 40
1.0
 40
1.0
 40
1.0
 10
-3.3465800000000003
 20
5.1257999999999981
 30
0.0
 10
-1.8405000000000005
 20
4.1970599999999987
 30
0.0
 10
-1.0310200000000003
 20
3.6827199999999993
 30
0.0
 10
-0.9182000000000001
 20
3.5839799999999999
 30
0.0
  0
SPLINE
  5
45
  8
0
 62
0
370
-1
  6
ByLayer
100
AcDbEntity
100
AcDbSpline
 70
8
 71
3
 72
8
 73
4
 74
0
 40
0.0
 40
0.0
 40
0.0
 40
0.0
 40
1.0
 40
1.0
 40
1.0
 40
1.0
 10
-0.9182000000000001
 20
3.5839799999999999
 30
0.0
 10
-0.8617600000000003
 20
3.5102000000000011
 30
0.0
 10
-0.8335599999999999
 20
3.4331599999999995
 30
0.0
 10
-0.8335599999999999
 20
3.3517799999999998
 30
0.0
  0
LINE
  5
46
100
AcDbEntity
100
AcDbLine
  8
0
 62
0
370
-1
  6
ByLayer
 10
-0.8335599999999999
 20
3.3517799999999998
 30
0.0
 11
-0.8335599999999999
 21
3.3094800000000002
 31
0.0
  0
SPLINE
  5
47
  8
0
 62
0
370
-1
  6
ByLayer
100
AcDbEntity
100
AcDbSpline
 70
8
 71
3
 72
8
 73
4
 74
0
 40
0.0
 40
0.0
 40
0.0
 40
0.0
 40
1.0
 40
1.0
 40
1.0
 40
1.0
 10
-0.8335599999999999
 20
3.3094800000000002
 30
0.0
 10
-0.8335599999999999
 20
3.1130600000000008
 30
0.0
 10
-1.0028400000000004
 20
2.9438000000000009
 30
0.0
 10
-1.3402800000000004
 20
2.8027200000000008
 30
0.0
  0
SPLINE
  5
48
  8
0
 62
0
370
-1
  6
ByLayer
100
AcDbEntity
100
AcDbSpline
 70
8
 71
3
 72
8
 73
4
 74
0
 40
0.0
 40
0.0
 40
0.0
 40
0.0
 40
1.0
 40
1.0
 40
1.0
 40
1.0
 10
-1.3402800000000004
 20
2.8027200000000008
 30
0.0
 10
-3.392139999999999
 20
1.4941399999999994
 30
0.0
 10
-4.4554999999999998
 20
0.8387600000000006
 30
0.0
 10
-4.5292999999999992
 20
0.8387600000000006
 30
0.0
  0
LINE
  5
49
100
AcDbEntity
100
AcDbLine
  8
0
 62
0
370
-1
  6
ByLayer
 10
-4.5292999999999992
 20
0.8387600000000006
 30
0.0
 11
-4.6139399999999995
 21
0.8387600000000006
 31
0.0
  0
SPLINE
  5
4A
  8
0
 62
0
370
-1
  6
ByLayer
100
AcDbEntity
100
AcDbSpline
 70
8
 71
3
 72
8
 73
4
 74
0
 40
0.0
 40
0.0
 40
0.0
 40
0.0
 40
1.0
 40
1.0
 40
1.0
 40
1.0
 10
-4.6139399999999995
 20
0.8387600000000006
 30
0.0
 10
-4.8808599999999993
 20
0.8886599999999989
 30
0.0
 10
-5.0143399999999989
 20
1.0221400000000003
 30
0.0
 10
-5.0143399999999989
 20
1.2402200000000008
 30
0.0
  0
LINE
  5
4B
100
AcDbEntity
100
AcDbLine
  8
0
 62
0
370
-1
  6
ByLayer
 10
-5.0143399999999989
 20
1.2402200000000008
 30
0.0
 11
-5.0143399999999989
 21
1.2619399999999992
 31
0.0
  0
SPLINE
  5
4C
  8
0
 62
0
370
-1
  6
ByLayer
100
AcDbEntity
100
AcDbSpline
 70
8
 71
3
 72
8
 73
4
 74
0
 40
0.0
 40
0.0
 40
0.0
 40
0.0
 40
1.0
 40
1.0
 40
1.0
 40
1.0
 10
-5.0143399999999989
 20
1.2619399999999992
 30
0.0
 10
-5.0143399999999989
 20
1.4659200000000006
 30
0.0
 10
-4.7897199999999991
 20
1.676439999999999
 30
0.0
 10
-4.3394199999999996
 20
1.8945199999999995
 30
0.0
  0
LINE
  5
4D
100
AcDbEntity
100
AcDbLine
  8
0
 62
0
370
-1
  6
ByLayer
 10
-4.3394199999999996
 20
1.8945199999999995
 30
0.0
 11
-2.0585800000000001
 21
3.3517799999999998
 31
0.0
  0
SPLINE
  5
4E
  8
0
 62
0
370
-1
  6
ByLayer
100
AcDbEntity
100
AcDbSpline
 70
8
 71
3
 72
8
 73
4
 74
0
 40
0.0
 40
0.0
 40
0.0
 40
0.0
 40
1.0
 40
1.0
 40
1.0
 40
1.0
 10
-2.0585800000000001
 20
3.3517799999999998
 30
0.0
 10
-3.8739199999999996
 20
4.4639800000000012
 30
0.0
 10
-4.8244400000000001
 20
5.0618000000000007
 30
0.0
 10
-4.9090800000000003
 20
5.1463999999999999
 30
0.0
  0
SPLINE
  5
4F
  8
0
 62
0
370
-1
  6
ByLayer
100
AcDbEntity
100
AcDbSpline
 70
8
 71
3
 72
8
 73
4
 74
0
 40
0.0
 40
0.0
 40
0.0
 40
0.0
 40
1.0
 40
1.0
 40
1.0
 40
1.0
 10
-4.9090800000000003
 20
5.1463999999999999
 30
0.0
 10
-4.9796199999999988
 20
5.2451999999999988
 30
0.0
 10
-5.0143399999999989
 20
5.3364000000000011
 30
0.0
 10
-5.0143399999999989
 20
5.4210000000000003
 30
0.0
  0
SPLINE
  5
50
  8
0
 62
0
370
-1
  6
ByLayer
100
AcDbEntity
100
AcDbSpline
 70
8
 71
3
 72
8
 73
4
 74
0
 40
0.0
 40
0.0
 40
0.0
 40
0.0
 40
1.0
 40
1.0
 40
1.0
 40
1.0
 10
-5.0143399999999989
 20
5.4210000000000003
 30
0.0
 10
-4.9578800000000003
 20
5.7032000000000016
 30
0.0
 10
-4.81792
 20
5.8431999999999995
 30
0.0
 10
-4.5922199999999993
 20
5.8431999999999995
 30
0.0
  0
LINE
  5
51
100
AcDbEntity
100
AcDbLine
  8
0
 62
0
370
-1
  6
ByLayer
 10
-0.0002199999999997
 20
-0.2213599999999993
 30
0.0
 11
4.6720800000000011
 21
-0.2213599999999993
 31
0.0
  0
SPLINE
  5
52
  8
0
 62
0
370
-1
  6
ByLayer
100
AcDbEntity
100
AcDbSpline
 70
8
 71
3
 72
8
 73
4
 74
0
 40
0.0
 40
0.0
 40
0.0
 40
0.0
 40
1.0
 40
1.0
 40
1.0
 40
1.0
 10
4.6720800000000011
 20
-0.2213599999999993
 30
0.0
 10
4.9324999999999992
 20
-0.2679999999999993
 30
0.0
 10
5.0627200000000006
 20
-0.3906199999999993
 30
0.0
 10
5.0627200000000006
 20
-0.5913600000000008
 30
0.0
  0
LINE
  5
53
100
AcDbEntity
100
AcDbLine
  8
0
 62
0
370
-1
  6
ByLayer
 10
5.0627200000000006
 20
-0.5913600000000008
 30
0.0
 11
5.0627200000000006
 21
-0.654300000000001
 31
0.0
  0
SPLINE
  5
54
  8
0
 62
0
370
-1
  6
ByLayer
100
AcDbEntity
100
AcDbSpline
 70
8
 71
3
 72
8
 73
4
 74
0
 40
0.0
 40
0.0
 40
0.0
 40
0.0
 40
1.0
 40
1.0
 40
1.0
 40
1.0
 10
5.0627200000000006
 20
-0.654300000000001
 30
0.0
 10
5.0138799999999994
 20
-0.9006200000000009
 30
0.0
 10
4.8902000000000001
 20
-1.0243000000000002
 30
0.0
 10
4.6927200000000013
 20
-1.0243000000000002
 30
0.0
  0
LINE
  5
55
100
AcDbEntity
100
AcDbLine
  8
0
 62
0
370
-1
  6
ByLayer
 10
4.6927200000000013
 20
-1.0243000000000002
 30
0.0
 11
-0.0002199999999997
 21
-1.0243000000000002
 31
0.0
  0
SPLINE
  5
56
  8
0
 62
0
370
-1
  6
ByLayer
100
AcDbEntity
100
AcDbSpline
 70
8
 71
3
 72
8
 73
4
 74
0
 40
0.0
 40
0.0
 40
0.0
 40
0.0
 40
1.0
 40
1.0
 40
1.0
 40
1.0
 10
-0.0002199999999997
 20
-1.0243000000000002
 30
0.0
 10
-0.221579999999999
 20
-1.0243000000000002
 30
0.0
 10
-0.3517799999999993
 20
-0.8800000000000008
 30
0.0
 10
-0.390839999999999
 20
-0.5913600000000008
 30
0.0
  0
SPLINE
  5
57
  8
0
 62
0
370
-1
  6
ByLayer
100
AcDbEntity
100
AcDbSpline
 70
8
 71
3
 72
8
 73
4
 74
0
 40
0.0
 40
0.0
 40
0.0
 40
0.0
 40
1.0
 40
1.0
 40
1.0
 40
1.0
 10
-0.390839999999999
 20
-0.5913600000000008
 30
0.0
 10
-0.3203
 20
-0.3450599999999993
 30
0.0
 10
-0.1901200000000003
 20
-0.2213599999999993
 30
0.0
 10
-0.0002199999999997
 20
-0.2213599999999993
 30
0.0
  0
LINE
  5
58
100
AcDbEntity
100
AcDbLine
  8
0
 62
0
370
-1
  6
ByLayer
 10
-11.453123999999999
 20
-4.6278400000000008
 30
0.0
 11
-11.3478719999999988
 21
-4.6278400000000008
 31
0.0
  0
SPLINE
  5
59
  8
0
 62
0
370
-1
  6
ByLayer
100
AcDbEntity
100
AcDbSpline
 70
8
 71
3
 72
8
 73
4
 74
0
 40
0.0
 40
0.0
 40
0.0
 40
0.0
 40
1.0
 40
1.0
 40
1.0
 40
1.0
 10
-11.3478719999999988
 20
-4.6278400000000008
 30
0.0
 10
-10.9789499999999975
 20
-4.7005199999999991
 30
0.0
 10
-10.7944879999999994
 20
-4.8643600000000013
 30
0.0
 10
-10.7944879999999994
 20
-5.1182799999999995
 30
0.0
  0
LINE
  5
5A
100
AcDbEntity
100
AcDbLine
  8
0
 62
0
370
-1
  6
ByLayer
 10
-10.7944879999999994
 20
-5.1182799999999995
 30
0.0
 11
-10.7944879999999994
 21
-7.2764799999999994
 31
0.0
  0
SPLINE
  5
5B
  8
0
 62
0
370
-1
  6
ByLayer
100
AcDbEntity
100
AcDbSpline
 70
8
 71
3
 72
8
 73
4
 74
0
 40
0.0
 40
0.0
 40
0.0
 40
0.0
 40
1.0
 40
1.0
 40
1.0
 40
1.0
 10
-10.7944879999999994
 20
-7.2764799999999994
 30
0.0
 10
-10.3908419999999992
 20
-6.9498600000000001
 30
0.0
 10
-9.8483000000000001
 20
-6.7860200000000006
 30
0.0
 10
-9.1647199999999991
 20
-6.7860200000000006
 30
0.0
  0
SPLINE
  5
5C
  8
0
 62
0
370
-1
  6
ByLayer
100
AcDbEntity
100
AcDbSpline
 70
8
 71
3
 72
8
 73
4
 74
0
 40
0.0
 40
0.0
 40
0.0
 40
0.0
 40
1.0
 40
1.0
 40
1.0
 40
1.0
 10
-9.1647199999999991
 20
-6.7860200000000006
 30
0.0
 10
-8.1252199999999988
 20
-6.7860200000000006
 30
0.0
 10
-7.291879999999999
 20
-7.2460800000000001
 30
0.0
 10
-6.666879999999999
 20
-8.1651399999999992
 30
0.0
  0
SPLINE
  5
5D
  8
0
 62
0
370
-1
  6
ByLayer
100
AcDbEntity
100
AcDbSpline
 70
8
 71
3
 72
8
 73
4
 74
0
 40
0.0
 40
0.0
 40
0.0
 40
0.0
 40
1.0
 40
1.0
 40
1.0
 40
1.0
 10
-6.666879999999999
 20
-8.1651399999999992
 30
0.0
 10
-6.4303400000000002
 20
-8.5753000000000004
 30
0.0
 10
-6.3120599999999989
 20
-8.9659199999999988
 30
0.0
 10
-6.3120599999999989
 20
-9.3370200000000008
 30
0.0
  0
LINE
  5
5E
100
AcDbEntity
100
AcDbLine
  8
0
 62
0
370
-1
  6
ByLayer
 10
-6.3120599999999989
 20
-9.3370200000000008
 30
0.0
 11
-6.3120599999999989
 21
-12.2146400000000011
 31
0.0
  0
SPLINE
  5
5F
  8
0
 62
0
370
-1
  6
ByLayer
100
AcDbEntity
100
AcDbSpline
 70
8
 71
3
 72
8
 73
4
 74
0
 40
0.0
 40
0.0
 40
0.0
 40
0.0
 40
1.0
 40
1.0
 40
1.0
 40
1.0
 10
-6.3120599999999989
 20
-12.2146400000000011
 30
0.0
 10
-6.3120599999999989
 20
-12.5086800000000018
 30
0.0
 10
-6.5062999999999995
 20
-12.6866400000000006
 30
0.0
 10
-6.8947399999999988
 20
-12.7484800000000007
 30
0.0
  0
LINE
  5
60
100
AcDbEntity
100
AcDbLine
  8
0
 62
0
370
-1
  6
ByLayer
 10
-6.8947399999999988
 20
-12.7484800000000007
 30
0.0
 11
-6.9240599999999999
 21
-12.7484800000000007
 31
0.0
  0
SPLINE
  5
61
  8
0
 62
0
370
-1
  6
ByLayer
100
AcDbEntity
100
AcDbSpline
 70
8
 71
3
 72
8
 73
4
 74
0
 40
0.0
 40
0.0
 40
0.0
 40
0.0
 40
1.0
 40
1.0
 40
1.0
 40
1.0
 10
-6.9240599999999999
 20
-12.7484800000000007
 30
0.0
 10
-7.2224399999999989
 20
-12.7484800000000007
 30
0.0
 10
-7.4199199999999994
 20
-12.5781199999999984
 30
0.0
 10
-7.5175799999999988
 20
-12.236320000000001
 30
0.0
  0
LINE
  5
62
100
AcDbEntity
100
AcDbLine
  8
0
 62
0
370
-1
  6
ByLayer
 10
-7.5175799999999988
 20
-12.236320000000001
 30
0.0
 11
-7.5175799999999988
 21
-9.4563799999999993
 31
0.0
  0
SPLINE
  5
63
  8
0
 62
0
370
-1
  6
ByLayer
100
AcDbEntity
100
AcDbSpline
 70
8
 71
3
 72
8
 73
4
 74
0
 40
0.0
 40
0.0
 40
0.0
 40
0.0
 40
1.0
 40
1.0
 40
1.0
 40
1.0
 10
-7.5175799999999988
 20
-9.4563799999999993
 30
0.0
 10
-7.5175799999999988
 20
-8.7879799999999992
 30
0.0
 10
-7.8875799999999998
 20
-8.3051200000000005
 30
0.0
 10
-8.6297800000000002
 20
-8.0067200000000014
 30
0.0
  0
SPLINE
  5
64
  8
0
 62
0
370
-1
  6
ByLayer
100
AcDbEntity
100
AcDbSpline
 70
8
 71
3
 72
8
 73
4
 74
0
 40
0.0
 40
0.0
 40
0.0
 40
0.0
 40
1.0
 40
1.0
 40
1.0
 40
1.0
 10
-8.6297800000000002
 20
-8.0067200000000014
 30
0.0
 10
-8.8044799999999981
 20
-7.9600600000000004
 30
0.0
 10
-8.9824199999999994
 20
-7.9361999999999995
 30
0.0
 10
-9.1647199999999991
 20
-7.9361999999999995
 30
0.0
  0
SPLINE
  5
65
  8
0
 62
0
370
-1
  6
ByLayer
100
AcDbEntity
100
AcDbSpline
 70
8
 71
3
 72
8
 73
4
 74
0
 40
0.0
 40
0.0
 40
0.0
 40
0.0
 40
1.0
 40
1.0
 40
1.0
 40
1.0
 10
-9.1647199999999991
 20
-7.9361999999999995
 30
0.0
 10
-9.8982200000000002
 20
-7.9361999999999995
 30
0.0
 10
-10.4168839999999996
 20
-8.3051200000000005
 30
0.0
 10
-10.7196159999999985
 20
-9.04298
 30
0.0
  0
SPLINE
  5
66
  8
0
 62
0
370
-1
  6
ByLayer
100
AcDbEntity
100
AcDbSpline
 70
8
 71
3
 72
8
 73
4
 74
0
 40
0.0
 40
0.0
 40
0.0
 40
0.0
 40
1.0
 40
1.0
 40
1.0
 40
1.0
 10
-10.7196159999999985
 20
-9.04298
 30
0.0
 10
-10.7695299999999996
 20
-9.1992200000000004
 30
0.0
 10
-10.7944879999999994
 20
-9.4672199999999993
 30
0.0
 10
-10.7944879999999994
 20
-9.8491599999999995
 30
0.0
  0
LINE
  5
67
100
AcDbEntity
100
AcDbLine
  8
0
 62
0
370
-1
  6
ByLayer
 10
-10.7944879999999994
 20
-9.8491599999999995
 30
0.0
 11
-10.7944879999999994
 21
-12.2146400000000011
 31
0.0
  0
SPLINE
  5
68
  8
0
 62
0
370
-1
  6
ByLayer
100
AcDbEntity
100
AcDbSpline
 70
8
 71
3
 72
8
 73
4
 74
0
 40
0.0
 40
0.0
 40
0.0
 40
0.0
 40
1.0
 40
1.0
 40
1.0
 40
1.0
 10
-10.7944879999999994
 20
-12.2146400000000011
 30
0.0
 10
-10.7944879999999994
 20
-12.5086800000000018
 30
0.0
 10
-10.9887160000000002
 20
-12.6866400000000006
 30
0.0
 10
-11.3771699999999996
 20
-12.7484800000000007
 30
0.0
  0
LINE
  5
69
100
AcDbEntity
100
AcDbLine
  8
0
 62
0
370
-1
  6
ByLayer
 10
-11.3771699999999996
 20
-12.7484800000000007
 30
0.0
 11
-11.406466
 21
-12.7484800000000007
 31
0.0
  0
SPLINE
  5
6A
  8
0
 62
0
370
-1
  6
ByLayer
100
AcDbEntity
100
AcDbSpline
 70
8
 71
3
 72
8
 73
4
 74
0
 40
0.0
 40
0.0
 40
0.0
 40
0.0
 40
1.0
 40
1.0
 40
1.0
 40
1.0
 10
-11.406466
 20
-12.7484800000000007
 30
0.0
 10
-11.7048620000000003
 20
-12.7484800000000007
 30
0.0
 10
-11.9034288000000004
 20
-12.5781199999999984
 30
0.0
 10
-12.0
 20
-12.236320000000001
 30
0.0
  0
LINE
  5
6B
100
AcDbEntity
100
AcDbLine
  8
0
 62
0
370
-1
  6
ByLayer
 10
-12.0
 20
-12.236320000000001
 30
0.0
 11
-12.0
 21
-5.1616600000000004
 31
0.0
  0
SPLINE
  5
6C
  8
0
 62
0
370
-1
  6
ByLayer
100
AcDbEntity
100
AcDbSpline
 70
8
 71
3
 72
8
 73
4
 74
0
 40
0.0
 40
0.0
 40
0.0
 40
0.0
 40
1.0
 40
1.0
 40
1.0
 40
1.0
 10
-12.0
 20
-5.1616600000000004
 30
0.0
 10
-11.9186197999999983
 20
-4.8057799999999995
 30
0.0
 10
-11.7363280000000003
 20
-4.6278400000000008
 30
0.0
 10
-11.453123999999999
 20
-4.6278400000000008
 30
0.0
  0
SPLINE
  5
6D
  8
0
 62
0
370
-1
  6
ByLayer
100
AcDbEntity
100
AcDbSpline
 70
8
 71
3
 72
8
 73
4
 74
0
 40
0.0
 40
0.0
 40
0.0
 40
0.0
 40
1.0
 40
1.0
 40
1.0
 40
1.0
 10
-1.5583799999999992
 20
-10.8029399999999995
 30
0.0
 10
-1.5627199999999997
 20
-10.7302400000000002
 30
0.0
 10
-1.6419199999999989
 20
-10.6868599999999994
 30
0.0
 10
-1.7970799999999998
 20
-10.671660000000001
 30
0.0
  0
SPLINE
  5
6E
  8
0
 62
0
370
-1
  6
ByLayer
100
AcDbEntity
100
AcDbSpline
 70
8
 71
3
 72
8
 73
4
 74
0
 40
0.0
 40
0.0
 40
0.0
 40
0.0
 40
1.0
 40
1.0
 40
1.0
 40
1.0
 10
-1.7970799999999998
 20
-10.671660000000001
 30
0.0
 10
-3.7610599999999996
 20
-10.2614999999999981
 30
0.0
 10
-4.8092600000000001
 20
-10.0
 30
0.0
 10
-4.9405199999999994
 20
-9.8871599999999997
 30
0.0
  0
SPLINE
  5
6F
  8
0
 62
0
370
-1
  6
ByLayer
100
AcDbEntity
100
AcDbSpline
 70
8
 71
3
 72
8
 73
4
 74
0
 40
0.0
 40
0.0
 40
0.0
 40
0.0
 40
1.0
 40
1.0
 40
1.0
 40
1.0
 10
-4.9405199999999994
 20
-9.8871599999999997
 30
0.0
 10
-5.3409199999999988
 20
-9.6039399999999997
 30
0.0
 10
-5.5405799999999994
 20
-9.2534799999999997
 30
0.0
 10
-5.5405799999999994
 20
-8.8357200000000002
 30
0.0
  0
SPLINE
  5
70
  8
0
 62
0
370
-1
  6
ByLayer
100
AcDbEntity
100
AcDbSpline
 70
8
 71
3
 72
8
 73
4
 74
0
 40
0.0
 40
0.0
 40
0.0
 40
0.0
 40
1.0
 40
1.0
 40
1.0
 40
1.0
 10
-5.5405799999999994
 20
-8.8357200000000002
 30
0.0
 10
-5.5405799999999994
 20
-8.2682199999999995
 30
0.0
 10
-5.1174199999999992
 20
-7.7311200000000007
 30
0.0
 10
-4.2710600000000003
 20
-7.2222200000000001
 30
0.0
  0
SPLINE
  5
71
  8
0
 62
0
370
-1
  6
ByLayer
100
AcDbEntity
100
AcDbSpline
 70
8
 71
3
 72
8
 73
4
 74
0
 40
0.0
 40
0.0
 40
0.0
 40
0.0
 40
1.0
 40
1.0
 40
1.0
 40
1.0
 10
-4.2710600000000003
 20
-7.2222200000000001
 30
0.0
 10
-3.8055599999999998
 20
-6.9932799999999995
 30
0.0
 10
-3.345499999999999
 20
-6.8782399999999999
 30
0.0
 10
-2.8919199999999998
 20
-6.8782399999999999
 30
0.0
  0
SPLINE
  5
72
  8
0
 62
0
370
-1
  6
ByLayer
100
AcDbEntity
100
AcDbSpline
 70
8
 71
3
 72
8
 73
4
 74
0
 40
0.0
 40
0.0
 40
0.0
 40
0.0
 40
1.0
 40
1.0
 40
1.0
 40
1.0
 10
-2.8919199999999998
 20
-6.8782399999999999
 30
0.0
 10
-1.8285599999999991
 20
-6.8782399999999999
 30
0.0
 10
-0.9876399999999985
 20
-7.3383399999999996
 30
0.0
 10
-0.3702199999999989
 20
-8.2573799999999995
 30
0.0
  0
LINE
  5
73
100
AcDbEntity
100
AcDbLine
  8
0
 62
0
370
-1
  6
ByLayer
 10
-0.3702199999999989
 20
-8.2573799999999995
 30
0.0
 11
-0.3474399999999989
 21
-8.4591999999999992
 31
0.0
  0
LINE
  5
74
100
AcDbEntity
100
AcDbLine
  8
0
 62
0
370
-1
  6
ByLayer
 10
-0.3474399999999989
 20
-8.4591999999999992
 30
0.0
 11
-0.3474399999999989
 21
-8.4917400000000001
 31
0.0
  0
SPLINE
  5
75
  8
0
 62
0
370
-1
  6
ByLayer
100
AcDbEntity
100
AcDbSpline
 70
8
 71
3
 72
8
 73
4
 74
0
 40
0.0
 40
0.0
 40
0.0
 40
0.0
 40
1.0
 40
1.0
 40
1.0
 40
1.0
 10
-0.3474399999999989
 20
-8.4917400000000001
 30
0.0
 10
-0.3474399999999989
 20
-8.8010000000000002
 30
0.0
 10
-0.5449199999999998
 20
-8.9822000000000006
 30
0.0
 10
-0.9409800000000001
 20
-9.0375599999999991
 30
0.0
  0
SPLINE
  5
76
  8
0
 62
0
370
-1
  6
ByLayer
100
AcDbEntity
100
AcDbSpline
 70
8
 71
3
 72
8
 73
4
 74
0
 40
0.0
 40
0.0
 40
0.0
 40
0.0
 40
1.0
 40
1.0
 40
1.0
 40
1.0
 10
-0.9409800000000001
 20
-9.0375599999999991
 30
0.0
 10
-1.204639999999999
 20
-9.0375599999999991
 30
0.0
 10
-1.4498600000000006
 20
-8.8628400000000003
 30
0.0
 10
-1.6744800000000004
 20
-8.5134399999999992
 30
0.0
  0
SPLINE
  5
77
  8
0
 62
0
370
-1
  6
ByLayer
100
AcDbEntity
100
AcDbSpline
 70
8
 71
3
 72
8
 73
4
 74
0
 40
0.0
 40
0.0
 40
0.0
 40
0.0
 40
1.0
 40
1.0
 40
1.0
 40
1.0
 10
-1.6744800000000004
 20
-8.5134399999999992
 30
0.0
 10
-2.0282199999999992
 20
-8.1901200000000003
 30
0.0
 10
-2.4340200000000003
 20
-8.0284199999999988
 30
0.0
 10
-2.8919199999999998
 20
-8.0284199999999988
 30
0.0
  0
SPLINE
  5
78
  8
0
 62
0
370
-1
  6
ByLayer
100
AcDbEntity
100
AcDbSpline
 70
8
 71
3
 72
8
 73
4
 74
0
 40
0.0
 40
0.0
 40
0.0
 40
0.0
 40
1.0
 40
1.0
 40
1.0
 40
1.0
 10
-2.8919199999999998
 20
-8.0284199999999988
 30
0.0
 10
-3.4887199999999998
 20
-8.0284199999999988
 30
0.0
 10
-3.9563799999999993
 20
-8.2899399999999996
 30
0.0
 10
-4.2949199999999994
 20
-8.8140199999999993
 30
0.0
  0
LINE
  5
79
100
AcDbEntity
100
AcDbLine
  8
0
 62
0
370
-1
  6
ByLayer
 10
-4.2949199999999994
 20
-8.8140199999999993
 30
0.0
 11
-4.3057799999999986
 21
-8.8682799999999986
 31
0.0
  0
SPLINE
  5
7A
  8
0
 62
0
370
-1
  6
ByLayer
100
AcDbEntity
100
AcDbSpline
 70
8
 71
3
 72
8
 73
4
 74
0
 40
0.0
 40
0.0
 40
0.0
 40
0.0
 40
1.0
 40
1.0
 40
1.0
 40
1.0
 10
-4.3057799999999986
 20
-8.8682799999999986
 30
0.0
 10
-4.3057799999999986
 20
-8.9409799999999997
 30
0.0
 10
-4.1397399999999998
 20
-8.9898000000000007
 30
0.0
 10
-3.8055599999999998
 20
-9.0147600000000008
 30
0.0
  0
SPLINE
  5
7B
  8
0
 62
0
370
-1
  6
ByLayer
100
AcDbEntity
100
AcDbSpline
 70
8
 71
3
 72
8
 73
4
 74
0
 40
0.0
 40
0.0
 40
0.0
 40
0.0
 40
1.0
 40
1.0
 40
1.0
 40
1.0
 10
-3.8055599999999998
 20
-9.0147600000000008
 30
0.0
 10
-2.1367199999999995
 20
-9.39344
 30
0.0
 10
-1.2144200000000005
 20
-9.6126400000000007
 30
0.0
 10
-1.0397199999999995
 20
-9.6744799999999991
 30
0.0
  0
SPLINE
  5
7C
  8
0
 62
0
370
-1
  6
ByLayer
100
AcDbEntity
100
AcDbSpline
 70
8
 71
3
 72
8
 73
4
 74
0
 40
0.0
 40
0.0
 40
0.0
 40
0.0
 40
1.0
 40
1.0
 40
1.0
 40
1.0
 10
-1.0397199999999995
 20
-9.6744799999999991
 30
0.0
 10
-0.5633599999999994
 20
-9.9685199999999998
 30
0.0
 10
-0.3246599999999988
 20
-10.341800000000001
 30
0.0
 10
-0.3246599999999988
 20
-10.7921200000000006
 30
0.0
  0
LINE
  5
7D
100
AcDbEntity
100
AcDbLine
  8
0
 62
0
370
-1
  6
ByLayer
 10
-0.3246599999999988
 20
-10.7921200000000006
 30
0.0
 11
-0.3246599999999988
 21
-10.8083799999999997
 31
0.0
  0
SPLINE
  5
7E
  8
0
 62
0
370
-1
  6
ByLayer
100
AcDbEntity
100
AcDbSpline
 70
8
 71
3
 72
8
 73
4
 74
0
 40
0.0
 40
0.0
 40
0.0
 40
0.0
 40
1.0
 40
1.0
 40
1.0
 40
1.0
 10
-0.3246599999999988
 20
-10.8083799999999997
 30
0.0
 10
-0.3246599999999988
 20
-11.4301199999999987
 30
0.0
 10
-0.7933799999999991
 20
-11.9911199999999987
 30
0.0
 10
-1.7330800000000002
 20
-12.4923999999999999
 30
0.0
  0
SPLINE
  5
7F
  8
0
 62
0
370
-1
  6
ByLayer
100
AcDbEntity
100
AcDbSpline
 70
8
 71
3
 72
8
 73
4
 74
0
 40
0.0
 40
0.0
 40
0.0
 40
0.0
 40
1.0
 40
1.0
 40
1.0
 40
1.0
 10
-1.7330800000000002
 20
-12.4923999999999999
 30
0.0
 10
-2.1399799999999991
 20
-12.6638400000000004
 30
0.0
 10
-2.5696599999999989
 20
-12.7484800000000007
 30
0.0
 10
-3.0199799999999999
 20
-12.7484800000000007
 30
0.0
  0
SPLINE
  5
80
  8
0
 62
0
370
-1
  6
ByLayer
100
AcDbEntity
100
AcDbSpline
 70
8
 71
3
 72
8
 73
4
 74
0
 40
0.0
 40
0.0
 40
0.0
 40
0.0
 40
1.0
 40
1.0
 40
1.0
 40
1.0
 10
-3.0199799999999999
 20
-12.7484800000000007
 30
0.0
 10
-3.9509399999999992
 20
-12.7484800000000007
 30
0.0
 10
-4.7365599999999999
 20
-12.3415799999999987
 30
0.0
 10
-5.3778399999999991
 20
-11.5277799999999999
 30
0.0
  0
SPLINE
  5
81
  8
0
 62
0
370
-1
  6
ByLayer
100
AcDbEntity
100
AcDbSpline
 70
8
 71
3
 72
8
 73
4
 74
0
 40
0.0
 40
0.0
 40
0.0
 40
0.0
 40
1.0
 40
1.0
 40
1.0
 40
1.0
 10
-5.3778399999999991
 20
-11.5277799999999999
 30
0.0
 10
-5.4591999999999992
 20
-11.4192800000000005
 30
0.0
 10
-5.4993599999999994
 20
-11.3129400000000011
 30
0.0
 10
-5.4993599999999994
 20
-11.2120200000000008
 30
0.0
  0
LINE
  5
82
100
AcDbEntity
100
AcDbLine
  8
0
 62
0
370
-1
  6
ByLayer
 10
-5.4993599999999994
 20
-11.2120200000000008
 30
0.0
 11
-5.4993599999999994
 21
-11.0915799999999987
 31
0.0
  0
SPLINE
  5
83
  8
0
 62
0
370
-1
  6
ByLayer
100
AcDbEntity
100
AcDbSpline
 70
8
 71
3
 72
8
 73
4
 74
0
 40
0.0
 40
0.0
 40
0.0
 40
0.0
 40
1.0
 40
1.0
 40
1.0
 40
1.0
 10
-5.4993599999999994
 20
-11.0915799999999987
 30
0.0
 10
-5.4993599999999994
 20
-10.7975200000000005
 30
0.0
 10
-5.2855799999999995
 20
-10.6282399999999999
 30
0.0
 10
-4.8591599999999993
 20
-10.5848600000000008
 30
0.0
  0
SPLINE
  5
84
  8
0
 62
0
370
-1
  6
ByLayer
100
AcDbEntity
100
AcDbSpline
 70
8
 71
3
 72
8
 73
4
 74
0
 40
0.0
 40
0.0
 40
0.0
 40
0.0
 40
1.0
 40
1.0
 40
1.0
 40
1.0
 10
-4.8591599999999993
 20
-10.5848600000000008
 30
0.0
 10
-4.6529999999999996
 20
-10.5848600000000008
 30
0.0
 10
-4.4110199999999997
 20
-10.7725600000000004
 30
0.0
 10
-4.131079999999999
 20
-11.1458399999999997
 30
0.0
  0
SPLINE
  5
85
  8
0
 62
0
370
-1
  6
ByLayer
100
AcDbEntity
100
AcDbSpline
 70
8
 71
3
 72
8
 73
4
 74
0
 40
0.0
 40
0.0
 40
0.0
 40
0.0
 40
1.0
 40
1.0
 40
1.0
 40
1.0
 10
-4.131079999999999
 20
-11.1458399999999997
 30
0.0
 10
-3.7903599999999993
 20
-11.4442200000000014
 30
0.0
 10
-3.3899799999999991
 20
-11.592880000000001
 30
0.0
 10
-2.9320799999999991
 20
-11.592880000000001
 30
0.0
  0
SPLINE
  5
86
  8
0
 62
0
370
-1
  6
ByLayer
100
AcDbEntity
100
AcDbSpline
 70
8
 71
3
 72
8
 73
4
 74
0
 40
0.0
 40
0.0
 40
0.0
 40
0.0
 40
1.0
 40
1.0
 40
1.0
 40
1.0
 10
-2.9320799999999991
 20
-11.592880000000001
 30
0.0
 10
-2.3884399999999992
 20
-11.592880000000001
 30
0.0
 10
-1.9381399999999993
 20
-11.3552400000000002
 30
0.0
 10
-1.5811599999999992
 20
-10.8789200000000008
 30
0.0
  0
LINE
  5
87
100
AcDbEntity
100
AcDbLine
  8
0
 62
0
370
-1
  6
ByLayer
 10
-1.5811599999999992
 20
-10.8789200000000008
 30
0.0
 11
-1.5583799999999992
 21
-10.8029399999999995
 31
0.0
  0
SPLINE
  5
88
  8
0
 62
0
370
-1
  6
ByLayer
100
AcDbEntity
100
AcDbSpline
 70
8
 71
3
 72
8
 73
4
 74
0
 40
0.0
 40
0.0
 40
0.0
 40
0.0
 40
1.0
 40
1.0
 40
1.0
 40
1.0
 10
5.9448800000000013
 20
-7.9470600000000005
 30
0.0
 10
6.4179800000000009
 20
-8.5536199999999987
 30
0.0
 10
6.6545000000000005
 20
-9.1297800000000002
 30
0.0
 10
6.6545000000000005
 20
-9.6744799999999991
 30
0.0
  0
LINE
  5
89
100
AcDbEntity
100
AcDbLine
  8
0
 62
0
370
-1
  6
ByLayer
 10
6.6545000000000005
 20
-9.6744799999999991
 30
0.0
 11
6.6317200000000014
 21
-10.361340000000002
 31
0.0
  0
LINE
  5
8A
100
AcDbEntity
100
AcDbLine
  8
0
 62
0
370
-1
  6
ByLayer
 10
6.6317200000000014
 20
-10.361340000000002
 30
0.0
 11
6.6317200000000014
 21
-12.8081599999999991
 31
0.0
  0
SPLINE
  5
8B
  8
0
 62
0
370
-1
  6
ByLayer
100
AcDbEntity
100
AcDbSpline
 70
8
 71
3
 72
8
 73
4
 74
0
 40
0.0
 40
0.0
 40
0.0
 40
0.0
 40
1.0
 40
1.0
 40
1.0
 40
1.0
 10
6.6317200000000014
 20
-12.8081599999999991
 30
0.0
 10
6.6317200000000014
 20
-13.3213980000000003
 30
0.0
 10
6.2324200000000012
 20
-13.8639340000000004
 30
0.0
 10
5.4327199999999998
 20
-14.4379339999999985
 30
0.0
  0
SPLINE
  5
8C
  8
0
 62
0
370
-1
  6
ByLayer
100
AcDbEntity
100
AcDbSpline
 70
8
 71
3
 72
8
 73
4
 74
0
 40
0.0
 40
0.0
 40
0.0
 40
0.0
 40
1.0
 40
1.0
 40
1.0
 40
1.0
 10
5.4327199999999998
 20
-14.4379339999999985
 30
0.0
 10
4.8229199999999999
 20
-14.812282999999999
 30
0.0
 10
4.1848799999999997
 20
-15.0
 30
0.0
 10
3.5175800000000002
 20
-15.0
 30
0.0
  0
SPLINE
  5
8D
  8
0
 62
0
370
-1
  6
ByLayer
100
AcDbEntity
100
AcDbSpline
 70
8
 71
3
 72
8
 73
4
 74
0
 40
0.0
 40
0.0
 40
0.0
 40
0.0
 40
1.0
 40
1.0
 40
1.0
 40
1.0
 10
3.5175800000000002
 20
-15.0
 30
0.0
 10
2.3760800000000004
 20
-15.0
 30
0.0
 10
1.43316
 20
-14.5236560000000008
 30
0.0
 10
0.6877200000000006
 20
-13.5720500000000008
 30
0.0
  0
SPLINE
  5
8E
  8
0
 62
0
370
-1
  6
ByLayer
100
AcDbEntity
100
AcDbSpline
 70
8
 71
3
 72
8
 73
4
 74
0
 40
0.0
 40
0.0
 40
0.0
 40
0.0
 40
1.0
 40
1.0
 40
1.0
 40
1.0
 10
0.6877200000000006
 20
-13.5720500000000008
 30
0.0
 10
0.5401400000000001
 20
-13.3387579999999986
 30
0.0
 10
0.4663600000000012
 20
-13.1738280000000003
 30
0.0
 10
0.4663600000000012
 20
-13.0761719999999997
 30
0.0
  0
LINE
  5
8F
100
AcDbEntity
100
AcDbLine
  8
0
 62
0
370
-1
  6
ByLayer
 10
0.4663600000000012
 20
-13.0761719999999997
 30
0.0
 11
0.4663600000000012
 21
-13.015407999999999
 31
0.0
  0
SPLINE
  5
90
  8
0
 62
0
370
-1
  6
ByLayer
100
AcDbEntity
100
AcDbSpline
 70
8
 71
3
 72
8
 73
4
 74
0
 40
0.0
 40
0.0
 40
0.0
 40
0.0
 40
1.0
 40
1.0
 40
1.0
 40
1.0
 10
0.4663600000000012
 20
-13.015407999999999
 30
0.0
 10
0.4663600000000012
 20
-12.7506400000000006
 30
0.0
 10
0.6486600000000009
 20
-12.5792199999999994
 30
0.0
 10
1.0143400000000002
 20
-12.5032600000000009
 30
0.0
  0
LINE
  5
91
100
AcDbEntity
100
AcDbLine
  8
0
 62
0
370
-1
  6
ByLayer
 10
1.0143400000000002
 20
-12.5032600000000009
 30
0.0
 11
1.0956999999999995
 21
-12.5032600000000009
 31
0.0
  0
SPLINE
  5
92
  8
0
 62
0
370
-1
  6
ByLayer
100
AcDbEntity
100
AcDbSpline
 70
8
 71
3
 72
8
 73
4
 74
0
 40
0.0
 40
0.0
 40
0.0
 40
0.0
 40
1.0
 40
1.0
 40
1.0
 40
1.0
 10
1.0956999999999995
 20
-12.5032600000000009
 30
0.0
 10
1.3712999999999997
 20
-12.5032600000000009
 30
0.0
 10
1.5861600000000009
 20
-12.6996599999999997
 30
0.0
 10
1.7413400000000001
 20
-13.092448000000001
 30
0.0
  0
SPLINE
  5
93
  8
0
 62
0
370
-1
  6
ByLayer
100
AcDbEntity
100
AcDbSpline
 70
8
 71
3
 72
8
 73
4
 74
0
 40
0.0
 40
0.0
 40
0.0
 40
0.0
 40
1.0
 40
1.0
 40
1.0
 40
1.0
 10
1.7413400000000001
 20
-13.092448000000001
 30
0.0
 10
2.2155000000000014
 20
-13.6480019999999982
 30
0.0
 10
2.8068599999999999
 20
-13.9257800000000014
 30
0.0
 10
3.5175800000000002
 20
-13.9257800000000014
 30
0.0
  0
SPLINE
  5
94
  8
0
 62
0
370
-1
  6
ByLayer
100
AcDbEntity
100
AcDbSpline
 70
8
 71
3
 72
8
 73
4
 74
0
 40
0.0
 40
0.0
 40
0.0
 40
0.0
 40
1.0
 40
1.0
 40
1.0
 40
1.0
 10
3.5175800000000002
 20
-13.9257800000000014
 30
0.0
 10
4.3672000000000004
 20
-13.9257800000000014
 30
0.0
 10
5.0041200000000003
 20
-13.5698779999999992
 30
0.0
 10
5.4262199999999989
 20
-12.8580800000000011
 30
0.0
  0
LINE
  5
95
100
AcDbEntity
100
AcDbLine
  8
0
 62
0
370
-1
  6
ByLayer
 10
5.4262199999999989
 20
-12.8580800000000011
 30
0.0
 11
5.4620200000000008
 21
-12.6399799999999995
 31
0.0
  0
LINE
  5
96
100
AcDbEntity
100
AcDbLine
  8
0
 62
0
370
-1
  6
ByLayer
 10
5.4620200000000008
 20
-12.6399799999999995
 30
0.0
 11
5.4620200000000008
 21
-12.111559999999999
 31
0.0
  0
SPLINE
  5
97
  8
0
 62
0
370
-1
  6
ByLayer
100
AcDbEntity
100
AcDbSpline
 70
8
 71
3
 72
8
 73
4
 74
0
 40
0.0
 40
0.0
 40
0.0
 40
0.0
 40
1.0
 40
1.0
 40
1.0
 40
1.0
 10
1.0490599999999994
 20
-11.6199999999999992
 30
0.0
 10
0.6020000000000003
 20
-11.031880000000001
 30
0.0
 10
0.379560000000001
 20
-10.4231599999999993
 30
0.0
 10
0.379560000000001
 20
-9.7949200000000012
 30
0.0
  0
SPLINE
  5
98
  8
0
 62
0
370
-1
  6
ByLayer
100
AcDbEntity
100
AcDbSpline
 70
8
 71
3
 72
8
 73
4
 74
0
 40
0.0
 40
0.0
 40
0.0
 40
0.0
 40
1.0
 40
1.0
 40
1.0
 40
1.0
 10
0.379560000000001
 20
-9.7949200000000012
 30
0.0
 10
0.379560000000001
 20
-8.8389799999999994
 30
0.0
 10
0.82986
 20
-8.0392799999999998
 30
0.0
 10
1.7304800000000009
 20
-7.3969199999999997
 30
0.0
  0
LINE
  5
99
100
AcDbEntity
100
AcDbLine
  8
0
 62
0
370
-1
  6
ByLayer
 10
1.5731399999999995
 20
-9.7352399999999992
 30
0.0
 11
1.5731399999999995
 21
-9.8328800000000012
 31
0.0
  0
SPLINE
  5
9A
  8
0
 62
0
370
-1
  6
ByLayer
100
AcDbEntity
100
AcDbSpline
 70
8
 71
3
 72
8
 73
4
 74
0
 40
0.0
 40
0.0
 40
0.0
 40
0.0
 40
1.0
 40
1.0
 40
1.0
 40
1.0
 10
1.5731399999999995
 20
-9.8328800000000012
 30
0.0
 10
1.5731399999999995
 20
-10.58812
 30
0.0
 10
1.9973799999999997
 20
-11.1512399999999996
 30
0.0
 10
2.8480799999999995
 20
-11.5223600000000008
 30
0.0
  0
SPLINE
  5
9B
  8
0
 62
0
370
-1
  6
ByLayer
100
AcDbEntity
100
AcDbSpline
 70
8
 71
3
 72
8
 73
4
 74
0
 40
0.0
 40
0.0
 40
0.0
 40
0.0
 40
1.0
 40
1.0
 40
1.0
 40
1.0
 10
5.3686999999999996
 20
-10.4264400000000013
 30
0.0
 10
5.4305599999999998
 20
-10.1909799999999997
 30
0.0
 10
5.4620200000000008
 20
-10.0075800000000008
 30
0.0
 10
5.4620200000000008
 20
-9.8763000000000005
 30
0.0
  0
LINE
  5
9C
100
AcDbEntity
100
AcDbLine
  8
0
 62
0
370
-1
  6
ByLayer
 10
5.4620200000000008
 20
-9.8763000000000005
 30
0.0
 11
5.4620200000000008
 21
-9.7515199999999993
 31
0.0
  0
SPLINE
  5
9D
  8
0
 62
0
370
-1
  6
ByLayer
100
AcDbEntity
100
AcDbSpline
 70
8
 71
3
 72
8
 73
4
 74
0
 40
0.0
 40
0.0
 40
0.0
 40
0.0
 40
1.0
 40
1.0
 40
1.0
 40
1.0
 10
5.4620200000000008
 20
-9.7515199999999993
 30
0.0
 10
5.4620200000000008
 20
-8.9984800000000007
 30
0.0
 10
5.0323399999999996
 20
-8.4353400000000001
 30
0.0
 10
4.175139999999999
 20
-8.0609800000000007
 30
0.0
  0
SPLINE
  5
9E
  8
0
 62
0
370
-1
  6
ByLayer
100
AcDbEntity
100
AcDbSpline
 70
8
 71
3
 72
8
 73
4
 74
0
 40
0.0
 40
0.0
 40
0.0
 40
0.0
 40
1.0
 40
1.0
 40
1.0
 40
1.0
 10
1.6892200000000002
 20
-9.1460600000000003
 30
0.0
 10
1.6111200000000014
 20
-9.3608799999999999
 30
0.0
 10
1.5731399999999995
 20
-9.5562000000000005
 30
0.0
 10
1.5731399999999995
 20
-9.7352399999999992
 30
0.0
  0
SPLINE
  5
9F
  8
0
 62
0
370
-1
  6
ByLayer
100
AcDbEntity
100
AcDbSpline
 70
8
 71
3
 72
8
 73
4
 74
0
 40
0.0
 40
0.0
 40
0.0
 40
0.0
 40
1.0
 40
1.0
 40
1.0
 40
1.0
 10
8.2213999999999992
 20
-6.8022999999999998
 30
0.0
 10
8.6012000000000004
 20
-6.89344
 30
0.0
 10
8.7921999999999993
 20
-7.0638000000000005
 30
0.0
 10
8.7921999999999993
 20
-7.3144399999999994
 30
0.0
  0
LINE
  5
A0
100
AcDbEntity
100
AcDbLine
  8
0
 62
0
370
-1
  6
ByLayer
 10
8.7921999999999993
 20
-7.3144399999999994
 30
0.0
 11
8.7921999999999993
 21
-7.4023399999999997
 31
0.0
  0
SPLINE
  5
A1
  8
0
 62
0
370
-1
  6
ByLayer
100
AcDbEntity
100
AcDbSpline
 70
8
 71
3
 72
8
 73
4
 74
0
 40
0.0
 40
0.0
 40
0.0
 40
0.0
 40
1.0
 40
1.0
 40
1.0
 40
1.0
 10
8.7921999999999993
 20
-7.4023399999999997
 30
0.0
 10
9.2727999999999984
 20
-7.0019399999999994
 30
0.0
 10
9.9000000000000004
 20
-6.8022999999999998
 30
0.0
 10
10.6714000000000002
 20
-6.8022999999999998
 30
0.0
  0
SPLINE
  5
A2
  8
0
 62
0
370
-1
  6
ByLayer
100
AcDbEntity
100
AcDbSpline
 70
8
 71
3
 72
8
 73
4
 74
0
 40
0.0
 40
0.0
 40
0.0
 40
0.0
 40
1.0
 40
1.0
 40
1.0
 40
1.0
 10
10.6714000000000002
 20
-6.8022999999999998
 30
0.0
 10
11.0869999999999997
 20
-6.8022999999999998
 30
0.0
 10
11.5374000000000017
 20
-6.9010600000000002
 30
0.0
 10
12.0223999999999993
 20
-7.0963600000000007
 30
0.0
  0
SPLINE
  5
A3
  8
0
 62
0
370
-1
  6
ByLayer
100
AcDbEntity
100
AcDbSpline
 70
8
 71
3
 72
8
 73
4
 74
0
 40
0.0
 40
0.0
 40
0.0
 40
0.0
 40
1.0
 40
1.0
 40
1.0
 40
1.0
 10
12.0223999999999993
 20
-7.0963600000000007
 30
0.0
 10
12.1894000000000009
 20
-7.2569399999999993
 30
0.0
 10
12.2729999999999979
 20
-7.4110200000000006
 30
0.0
 10
12.2729999999999979
 20
-7.55966
 30
0.0
  0
LINE
  5
A4
100
AcDbEntity
100
AcDbLine
  8
0
 62
0
370
-1
  6
ByLayer
 10
12.2729999999999979
 20
-7.55966
 30
0.0
 11
12.2729999999999979
 21
-7.5987400000000003
 31
0.0
  0
SPLINE
  5
A5
  8
0
 62
0
370
-1
  6
ByLayer
100
AcDbEntity
100
AcDbSpline
 70
8
 71
3
 72
8
 73
4
 74
0
 40
0.0
 40
0.0
 40
0.0
 40
0.0
 40
1.0
 40
1.0
 40
1.0
 40
1.0
 10
12.2729999999999979
 20
-7.5987400000000003
 30
0.0
 10
12.2067999999999994
 20
-7.9546399999999995
 30
0.0
 10
12.0104000000000006
 20
-8.1325800000000008
 30
0.0
 10
11.6847999999999992
 20
-8.1325800000000008
 30
0.0
  0
LINE
  5
A6
100
AcDbEntity
100
AcDbLine
  8
0
 62
0
370
-1
  6
ByLayer
 10
11.6847999999999992
 20
-8.1325800000000008
 30
0.0
 11
11.6328000000000014
 21
-8.1325800000000008
 31
0.0
  0
SPLINE
  5
A7
  8
0
 62
0
370
-1
  6
ByLayer
100
AcDbEntity
100
AcDbSpline
 70
8
 71
3
 72
8
 73
4
 74
0
 40
0.0
 40
0.0
 40
0.0
 40
0.0
 40
1.0
 40
1.0
 40
1.0
 40
1.0
 10
11.6328000000000014
 20
-8.1325800000000008
 30
0.0
 10
11.2324000000000019
 20
-8.0121599999999997
 30
0.0
 10
10.9416000000000029
 20
-7.9524799999999995
 30
0.0
 10
10.7593999999999994
 20
-7.9524799999999995
 30
0.0
  0
LINE
  5
A8
100
AcDbEntity
100
AcDbLine
  8
0
 62
0
370
-1
  6
ByLayer
 10
10.7593999999999994
 20
-7.9524799999999995
 30
0.0
 11
10.6313999999999993
 21
-7.9524799999999995
 31
0.0
  0
SPLINE
  5
A9
  8
0
 62
0
370
-1
  6
ByLayer
100
AcDbEntity
100
AcDbSpline
 70
8
 71
3
 72
8
 73
4
 74
0
 40
0.0
 40
0.0
 40
0.0
 40
0.0
 40
1.0
 40
1.0
 40
1.0
 40
1.0
 10
10.6313999999999993
 20
-7.9524799999999995
 30
0.0
 10
9.8468000000000018
 20
-7.9524799999999995
 30
0.0
 10
9.2727999999999984
 20
-8.3344199999999997
 30
0.0
 10
8.908199999999999
 20
-9.0972200000000001
 30
0.0
  0
SPLINE
  5
AA
  8
0
 62
0
370
-1
  6
ByLayer
100
AcDbEntity
100
AcDbSpline
 70
8
 71
3
 72
8
 73
4
 74
0
 40
0.0
 40
0.0
 40
0.0
 40
0.0
 40
1.0
 40
1.0
 40
1.0
 40
1.0
 10
8.908199999999999
 20
-9.0972200000000001
 30
0.0
 10
8.8300000000000018
 20
-9.2968799999999998
 30
0.0
 10
8.7910000000000004
 20
-9.5290800000000004
 30
0.0
 10
8.7910000000000004
 20
-9.7949200000000012
 30
0.0
  0
LINE
  5
AB
100
AcDbEntity
100
AcDbLine
  8
0
 62
0
370
-1
  6
ByLayer
 10
8.7910000000000004
 20
-9.7949200000000012
 30
0.0
 11
8.7910000000000004
 21
-12.2146400000000011
 31
0.0
  0
SPLINE
  5
AC
  8
0
 62
0
370
-1
  6
ByLayer
100
AcDbEntity
100
AcDbSpline
 70
8
 71
3
 72
8
 73
4
 74
0
 40
0.0
 40
0.0
 40
0.0
 40
0.0
 40
1.0
 40
1.0
 40
1.0
 40
1.0
 10
8.7910000000000004
 20
-12.2146400000000011
 30
0.0
 10
8.7910000000000004
 20
-12.5086800000000018
 30
0.0
 10
8.5977999999999994
 20
-12.6866400000000006
 30
0.0
 10
8.2094000000000005
 20
-12.7484800000000007
 30
0.0
  0
LINE
  5
AD
100
AcDbEntity
100
AcDbLine
  8
0
 62
0
370
-1
  6
ByLayer
 10
8.2094000000000005
 20
-12.7484800000000007
 30
0.0
 11
8.1745999999999981
 21
-12.7484800000000007
 31
0.0
  0
SPLINE
  5
AE
  8
0
 62
0
370
-1
  6
ByLayer
100
AcDbEntity
100
AcDbSpline
 70
8
 71
3
 72
8
 73
4
 74
0
 40
0.0
 40
0.0
 40
0.0
 40
0.0
 40
1.0
 40
1.0
 40
1.0
 40
1.0
 10
8.1745999999999981
 20
-12.7484800000000007
 30
0.0
 10
7.8567800000000005
 20
-12.7484800000000007
 30
0.0
 10
7.6603599999999989
 20
-12.5629400000000011
 30
0.0
 10
7.5865800000000005
 20
-12.1929200000000009
 30
0.0
  0
LINE
  5
AF
100
AcDbEntity
100
AcDbLine
  8
0
 62
0
370
-1
  6
ByLayer
 10
7.5865800000000005
 20
-12.1929200000000009
 30
0.0
 11
7.5865800000000005
 21
-7.4294800000000008
 31
0.0
  0
SPLINE
  5
B0
  8
0
 62
0
370
-1
  6
ByLayer
100
AcDbEntity
100
AcDbSpline
 70
8
 71
3
 72
8
 73
4
 74
0
 40
0.0
 40
0.0
 40
0.0
 40
0.0
 40
1.0
 40
1.0
 40
1.0
 40
1.0
 10
7.5865800000000005
 20
-7.4294800000000008
 30
0.0
 10
7.6332599999999999
 20
-7.0117200000000004
 30
0.0
 10
7.8448399999999996
 20
-6.8022999999999998
 30
0.0
 10
8.2213999999999992
 20
-6.8022999999999998
 30
0.0
  0
LINE
  5
B1
100
AcDbEntity
100
AcDbLine
  8
0
 62
0
370
-1
  6
ByLayer
 10
-8.2152799999999999
 20
1.6970599999999991
 30
0.0
 11
-8.2152799999999999
 21
7.8081999999999985
 31
0.0
  0
LINE
  5
B2
100
AcDbEntity
100
AcDbLine
  8
0
 62
0
370
-1
  6
ByLayer
 10
-8.2152799999999999
 20
7.8081999999999985
 30
0.0
 11
-8.3541600000000003
 21
7.8081999999999985
 31
0.0
  0
SPLINE
  5
B3
  8
0
 62
0
370
-1
  6
ByLayer
100
AcDbEntity
100
AcDbSpline
 70
8
 71
3
 72
8
 73
4
 74
0
 40
0.0
 40
0.0
 40
0.0
 40
0.0
 40
1.0
 40
1.0
 40
1.0
 40
1.0
 10
-8.3541600000000003
 20
7.8081999999999985
 30
0.0
 10
-8.4312000000000005
 20
7.8081999999999985
 30
0.0
 10
-9.0464400000000005
 20
7.4914000000000014
 30
0.0
 10
-9.7202599999999997
 20
7.1062000000000003
 30
0.0
  0
LINE
  5
B4
100
AcDbEntity
100
AcDbLine
  8
0
 62
0
370
-1
  6
ByLayer
 10
-9.7202599999999997
 20
7.1062000000000003
 30
0.0
 11
-10.9474839999999993
 21
6.4040000000000008
 31
0.0
  0
LINE
  5
B5
100
AcDbEntity
100
AcDbLine
  8
0
 62
0
370
-1
  6
ByLayer
 10
-10.9474839999999993
 20
6.4040000000000008
 30
0.0
 11
-11.2480479999999989
 21
6.8154000000000003
 31
0.0
  0
SPLINE
  5
B6
  8
0
 62
0
370
-1
  6
ByLayer
100
AcDbEntity
100
AcDbSpline
 70
8
 71
3
 72
8
 73
4
 74
0
 40
0.0
 40
0.0
 40
0.0
 40
0.0
 40
1.0
 40
1.0
 40
1.0
 40
1.0
 10
-11.2480479999999989
 20
6.8154000000000003
 30
0.0
 10
-11.4129780000000007
 20
7.0409999999999995
 30
0.0
 10
-11.5442719999999994
 20
7.3317999999999994
 30
0.0
 10
-11.53993
 20
7.4610000000000021
 30
0.0
  0
LINE
  5
B7
100
AcDbEntity
100
AcDbLine
  8
0
 62
0
370
-1
  6
ByLayer
 10
-11.53993
 20
7.4610000000000021
 30
0.0
 11
-11.532335999999999
 21
7.6963999999999988
 31
0.0
  0
LINE
  5
B8
100
AcDbEntity
100
AcDbLine
  8
0
 62
0
370
-1
  6
ByLayer
 10
-11.532335999999999
 20
7.6963999999999988
 30
0.0
 11
-5.7619400000000001
 21
10.9940000000000015
 31
0.0
  0
LINE
  5
B9
100
AcDbEntity
100
AcDbLine
  8
0
 62
0
370
-1
  6
ByLayer
 10
5.7767000000000017
 20
10.9940000000000015
 30
0.0
 11
11.5469999999999988
 21
7.6963999999999988
 31
0.0
  0
LINE
  5
BA
100
AcDbEntity
100
AcDbLine
  8
0
 62
0
370
-1
  6
ByLayer
 10
11.5469999999999988
 20
7.6963999999999988
 30
0.0
 11
11.5545999999999989
 21
7.4610000000000021
 31
0.0
  0
SPLINE
  5
BB
  8
0
 62
0
370
-1
  6
ByLayer
100
AcDbEntity
100
AcDbSpline
 70
8
 71
3
 72
8
 73
4
 74
0
 40
0.0
 40
0.0
 40
0.0
 40
0.0
 40
1.0
 40
1.0
 40
1.0
 40
1.0
 10
11.5545999999999989
 20
7.4610000000000021
 30
0.0
 10
11.5590000000000011
 20
7.3317999999999994
 30
0.0
 10
11.4277999999999995
 20
7.0409999999999995
 30
0.0
 10
11.2628000000000021
 20
6.8154000000000003
 30
0.0
  0
LINE
  5
BC
100
AcDbEntity
100
AcDbLine
  8
0
 62
0
370
-1
  6
ByLayer
 10
11.2628000000000021
 20
6.8154000000000003
 30
0.0
 11
10.9621999999999993
 21
6.4040000000000008
 31
0.0
  0
LINE
  5
BD
100
AcDbEntity
100
AcDbLine
  8
0
 62
0
370
-1
  6
ByLayer
 10
10.9621999999999993
 20
6.4040000000000008
 30
0.0
 11
9.735000000000003
 21
7.1062000000000003
 31
0.0
  0
SPLINE
  5
BE
  8
0
 62
0
370
-1
  6
ByLayer
100
AcDbEntity
100
AcDbSpline
 70
8
 71
3
 72
8
 73
4
 74
0
 40
0.0
 40
0.0
 40
0.0
 40
0.0
 40
1.0
 40
1.0
 40
1.0
 40
1.0
 10
9.735000000000003
 20
7.1062000000000003
 30
0.0
 10
9.061200000000003
 20
7.4914000000000014
 30
0.0
 10
8.4459999999999997
 20
7.8081999999999985
 30
0.0
 10
8.3690000000000015
 20
7.8081999999999985
 30
0.0
  0
LINE
  5
BF
100
AcDbEntity
100
AcDbLine
  8
0
 62
0
370
-1
  6
ByLayer
 10
8.3690000000000015
 20
7.8081999999999985
 30
0.0
 11
8.2300000000000022
 21
7.8081999999999985
 31
0.0
  0
LINE
  5
C0
100
AcDbEntity
100
AcDbLine
  8
0
 62
0
370
-1
  6
ByLayer
 10
8.2300000000000022
 20
7.8081999999999985
 30
0.0
 11
8.2300000000000022
 21
-4.4140599999999992
 31
0.0
  0
LINE
  5
C1
100
AcDbEntity
100
AcDbLine
  8
0
 62
0
370
-1
  6
ByLayer
 10
8.2300000000000022
 20
-4.4140599999999992
 30
0.0
 11
6.9030000000000014
 21
-4.4140599999999992
 31
0.0
  0
LINE
  5
C2
100
AcDbEntity
100
AcDbLine
  8
0
 62
0
370
-1
  6
ByLayer
 10
6.9030000000000014
 20
-4.4140599999999992
 30
0.0
 11
6.844380000000001
 21
2.1907600000000005
 31
0.0
  0
LINE
  5
C3
100
AcDbEntity
100
AcDbLine
  8
0
 62
0
370
-1
  6
ByLayer
 10
6.844380000000001
 20
2.1907600000000005
 30
0.0
 11
6.7847200000000001
 21
8.796599999999998
 31
0.0
  0
LINE
  5
C4
100
AcDbEntity
100
AcDbLine
  8
0
 62
0
370
-1
  6
ByLayer
 10
6.7847200000000001
 20
8.796599999999998
 30
0.0
 11
3.3960600000000007
 21
10.764999999999997
 31
0.0
  0
LINE
  5
C5
100
AcDbEntity
100
AcDbLine
  8
0
 62
0
370
-1
  6
ByLayer
 10
-3.3812999999999995
 20
10.764999999999997
 30
0.0
 11
-6.7699800000000003
 21
8.796599999999998
 31
0.0
  0
LINE
  5
C6
100
AcDbEntity
100
AcDbLine
  8
0
 62
0
370
-1
  6
ByLayer
 10
-6.7699800000000003
 20
8.796599999999998
 30
0.0
 11
-6.8296399999999995
 21
2.1907600000000005
 31
0.0
  0
LINE
  5
C7
100
AcDbEntity
100
AcDbLine
  8
0
 62
0
370
-1
  6
ByLayer
 10
-6.8296399999999995
 20
2.1907600000000005
 30
0.0
 11
-6.8882399999999997
 21
-4.4140599999999992
 31
0.0
  0
LINE
  5
C8
100
AcDbEntity
100
AcDbLine
  8
0
 62
0
370
-1
  6
ByLayer
 10
-6.8882399999999997
 20
-4.4140599999999992
 30
0.0
 11
-8.2152799999999999
 21
-4.4140599999999992
 31
0.0
  0
LINE
  5
C9
100
AcDbEntity
100
AcDbLine
  8
0
 62
0
370
-1
  6
ByLayer
 10
-8.2152799999999999
 20
-4.4140599999999992
 30
0.0
 11
-8.2152799999999999
 21
1.6970599999999991
 31
0.0
  0
LINE
  5
CA
100
AcDbEntity
100
AcDbLine
  8
0
 62
256
370
-1
  6
ByLayer
 10
0.4000000000000004
 20
14.0658834351362039
 30
0.0
 11
0.4000000000000004
 21
12.5042758336579425
 31
0.0
  0
LINE
  5
CB
100
AcDbEntity
100
AcDbLine
  8
0
 62
256
370
-1
  6
ByLayer
 10
-0.4000000000000004
 20
12.4957073432723043
 30
0.0
 11
-0.4000000000000004
 21
14.0574505674845547
 31
0.0
  0
LINE
  5
CC
100
AcDbEntity
100
AcDbLine
  8
0
 62
0
370
-1
  6
ByLayer
 10
-5.7619400000000001
 20
10.9940000000000015
 30
0.0
 11
-0.3999999999999992
 21
14.0574505674845547
 31
0.0
  0
LINE
  5
CD
100
AcDbEntity
100
AcDbLine
  8
0
 62
0
370
-1
  6
ByLayer
 10
0.4000000000000004
 20
14.0658834351362039
 30
0.0
 11
5.7767000000000017
 21
10.9940000000000015
 31
0.0
  0
LINE
  5
CE
100
AcDbEntity
100
AcDbLine
  8
0
 62
0
370
-1
  6
ByLayer
 10
3.3960600000000007
 20
10.764999999999997
 30
0.0
 11
0.4000000000000004
 21
12.5042758336579407
 31
0.0
  0
LINE
  5
CF
100
AcDbEntity
100
AcDbLine
  8
0
 62
0
370
-1
  6
ByLayer
 10
-0.4000000000000004
 20
12.4957073432723043
 30
0.0
 11
-3.3812999999999995
 21
10.764999999999997
 31
0.0
  0
LINE
  5
D0
100
AcDbEntity
100
AcDbLine
  8
0
 62
256
370
-1
  6
ByLayer
 10
3.7999999999999998
 20
-8.2000000000000011
 30
0.0
 11
3.7999999999999998
 21
-8.2000000000000011
 31
0.0
  0
LINE
  5
D1
100
AcDbEntity
100
AcDbLine
  8
0
 62
256
370
-1
  6
ByLayer
 10
3.1999999999999993
 20
-11.5966694149310641
 30
0.0
 11
3.1999999999999993
 21
-12.7244514121348793
 31
0.0
  0
LINE
  5
D2
100
AcDbEntity
100
AcDbLine
  8
0
 62
256
370
-1
  6
ByLayer
 10
3.7999999999999998
 20
-11.6038680178533689
 30
0.0
 11
3.7999999999999998
 21
-12.7264973297262713
 31
0.0
  0
SPLINE
  5
D3
  8
0
 62
0
370
-1
  6
ByLayer
100
AcDbEntity
100
AcDbSpline
 70
8
 71
3
 72
8
 73
4
 74
0
 40
0.0
 40
0.0
 40
0.0
 40
0.0
 40
1.0
 40
1.0
 40
1.0
 40
1.0
 10
5.4620200000000008
 20
-12.111559999999999
 30
0.0
 10
4.9845800000000011
 20
-12.5249600000000001
 30
0.0
 10
4.3574200000000012
 20
-12.7322000000000006
 30
0.0
 10
3.7999999999999998
 20
-12.7264973297262713
 30
0.0
  0
SPLINE
  5
D4
  8
0
 62
0
370
-1
  6
ByLayer
100
AcDbEntity
100
AcDbSpline
 70
8
 71
3
 72
8
 73
4
 74
0
 40
0.0
 40
0.0
 40
0.0
 40
0.0
 40
1.0
 40
1.0
 40
1.0
 40
1.0
 10
3.1999999999999993
 20
-12.7244514121348793
 30
0.0
 10
2.5605600000000006
 20
-12.7322000000000006
 30
0.0
 10
1.7749400000000004
 20
-12.3621999999999979
 30
0.0
 10
1.0490599999999994
 20
-11.6199999999999992
 30
0.0
  0
SPLINE
  5
D5
  8
0
 62
0
370
-1
  6
ByLayer
100
AcDbEntity
100
AcDbSpline
 70
8
 71
3
 72
8
 73
4
 74
0
 40
0.0
 40
0.0
 40
0.0
 40
0.0
 40
1.0
 40
1.0
 40
1.0
 40
1.0
 10
2.8480799999999995
 20
-11.5223600000000008
 30
0.0
 10
2.9600000000000004
 20
-11.5599999999999987
 30
0.0
 10
3.0800000000000005
 20
-11.5799999999999983
 30
0.0
 10
3.1999999999999993
 20
-11.5966694149310641
 30
0.0
  0
SPLINE
  5
D6
  8
0
 62
0
370
-1
  6
ByLayer
100
AcDbEntity
100
AcDbSpline
 70
8
 71
3
 72
8
 73
4
 74
0
 40
0.0
 40
0.0
 40
0.0
 40
0.0
 40
1.0
 40
1.0
 40
1.0
 40
1.0
 10
3.7999999999999998
 20
-11.6038680178533689
 30
0.0
 10
4.3693600000000004
 20
-11.6145800000000001
 30
0.0
 10
4.9650600000000011
 20
-11.2185200000000016
 30
0.0
 10
5.3686999999999996
 20
-10.4264400000000013
 30
0.0
  0
LINE
  5
D7
100
AcDbEntity
100
AcDbLine
  8
0
 62
256
370
-1
  6
ByLayer
 10
3.2000000000000002
 20
-6.8727672921163272
 30
0.0
 11
3.2000000000000002
 21
-7.9914194175045274
 31
0.0
  0
LINE
  5
D8
100
AcDbEntity
100
AcDbLine
  8
0
 62
256
370
-1
  6
ByLayer
 10
3.7999999999999998
 20
-7.993259156583175
 30
0.0
 11
3.7999999999999998
 21
-6.8680795835013129
 31
0.0
  0
SPLINE
  5
D9
  8
0
 62
0
370
-1
  6
ByLayer
100
AcDbEntity
100
AcDbSpline
 70
8
 71
3
 72
8
 73
4
 74
0
 40
0.0
 40
0.0
 40
0.0
 40
0.0
 40
1.0
 40
1.0
 40
1.0
 40
1.0
 10
3.2000000000000002
 20
-7.9914194175045274
 30
0.0
 10
2.6885800000000004
 20
-7.9741600000000004
 30
0.0
 10
2.0928800000000014
 20
-8.3648000000000007
 30
0.0
 10
1.6892200000000002
 20
-9.1460600000000003
 30
0.0
  0
SPLINE
  5
DA
  8
0
 62
0
370
-1
  6
ByLayer
100
AcDbEntity
100
AcDbSpline
 70
8
 71
3
 72
8
 73
4
 74
0
 40
0.0
 40
0.0
 40
0.0
 40
0.0
 40
1.0
 40
1.0
 40
1.0
 40
1.0
 10
4.175139999999999
 20
-8.0609800000000007
 30
0.0
 10
4.0800000000000001
 20
-8.0199999999999996
 30
0.0
 10
3.9400000000000004
 20
-7.9999999999999991
 30
0.0
 10
3.7999999999999998
 20
-7.993259156583175
 30
0.0
  0
SPLINE
  5
DB
  8
0
 62
0
370
-1
  6
ByLayer
100
AcDbEntity
100
AcDbSpline
 70
8
 71
3
 72
8
 73
4
 74
0
 40
0.0
 40
0.0
 40
0.0
 40
0.0
 40
1.0
 40
1.0
 40
1.0
 40
1.0
 10
3.7999999999999998
 20
-6.8680795835013129
 30
0.0
 10
4.4529200000000007
 20
-6.85656
 30
0.0
 10
5.2612800000000011
 20
-7.2200600000000001
 30
0.0
 10
5.9448800000000013
 20
-7.9470600000000005
 30
0.0
  0
SPLINE
  5
DC
  8
0
 62
0
370
-1
  6
ByLayer
100
AcDbEntity
100
AcDbSpline
 70
8
 71
3
 72
8
 73
4
 74
0
 40
0.0
 40
0.0
 40
0.0
 40
0.0
 40
1.0
 40
1.0
 40
1.0
 40
1.0
 10
1.7304800000000009
 20
-7.3969199999999997
 30
0.0
 10
2.3044799999999999
 20
-7.0366600000000004
 30
0.0
 10
2.9001600000000005
 20
-6.85656
 30
0.0
 10
3.2000000000000002
 20
-6.8727672921163272
 30
0.0
  0
ARC
  5
DD
100
AcDbEntity
  8
0
 62
256
370
-1
  6
ByLayer
100
AcDbCircle
 10
-11.9999999999999858
 20
-14.0000000000000071
 30
0.0
 40
2.0
100
AcDbArc
 50
180.0
 51
270.0
  0
LINE
  5
DE
100
AcDbEntity
100
AcDbLine
  8
0
 62
256
370
-1
  6
ByLayer
 10
-11.9999999999999858
 20
-16.0000000000000071
 30
0.0
 11
12.0000000000000036
 21
-16.0000000000000071
 31
0.0
  0
ARC
  5
DF
100
AcDbEntity
  8
0
 62
256
370
-1
  6
ByLayer
100
AcDbCircle
 10
12.0000000000000036
 20
-14.0000000000000071
 30
0.0
 40
2.0
100
AcDbArc
 50
270.0
 51
0.0
  0
LINE
  5
E0
100
AcDbEntity
100
AcDbLine
  8
0
 62
256
370
-1
  6
ByLayer
 10
-13.9999999999999858
 20
8.8393549290575564
 30
0.0
 11
-13.9999999999999858
 21
-14.0000000000000071
 31
0.0
  0
ARC
  5
E1
100
AcDbEntity
  8
0
 62
256
370
-1
  6
ByLayer
100
AcDbCircle
 10
-11.9999999999999858
 20
8.8393549290575564
 30
0.0
 40
2.0
100
AcDbArc
 50
119.7448812969423528
 51
180.0
  0
LINE
  5
E2
100
AcDbEntity
100
AcDbLine
  8
0
 62
256
370
-1
  6
ByLayer
 10
14.0000000000000036
 20
-14.0000000000000071
 30
0.0
 11
14.0000000000000036
 21
8.8393549290575528
 31
0.0
  0
ARC
  5
E3
100
AcDbEntity
  8
0
 62
256
370
-1
  6
ByLayer
100
AcDbCircle
 10
12.0000000000000036
 20
8.8393549290575493
 30
0.0
 40
2.0
100
AcDbArc
 50
0.0
 51
60.2551187030577324
  0
LINE
  5
E4
100
AcDbEntity
100
AcDbLine
  8
0
 62
256
370
-1
  6
ByLayer
 10
-3.0
 20
16.2857142857142847
 30
0.0
 11
-12.9922778767136577
 21
10.5758412133064734
 31
0.0
  0
LINE
  5
E5
100
AcDbEntity
100
AcDbLine
  8
0
 62
256
370
-1
  6
ByLayer
 10
12.992277876713672
 20
10.5758412133064663
 30
0.0
 11
3.0
 21
16.2857142857142883
 31
0.0
  0
CIRCLE
  5
E6
100
AcDbEntity
100
AcDbCircle
  8
0
 62
256
370
-1
  6
ByLayer
 10
0.0
 20
19.0
 30
0.0
 40
2.0
  0
ARC
  5
E7
100
AcDbEntity
  8
0
 62
7
370
-1
  6
CONTINUOUS
100
AcDbCircle
 10
0.0
 20
19.0
 30
0.0
 40
3.0
100
AcDbArc
 50
0.0
 51
180.0
  0
LINE
  5
E8
100
AcDbEntity
100
AcDbLine
  8
0
 62
256
370
-1
  6
ByLayer
 10
3.0
 20
16.2857142857142883
 30
0.0
 11
3.0
 21
19.0
 31
0.0
  0
LINE
  5
E9
100
AcDbEntity
100
AcDbLine
  8
0
 62
256
370
-1
  6
ByLayer
 10
-3.0
 20
19.0
 30
0.0
 11
-3.0
 21
16.2857142857142847
 31
0.0
  0
ENDSEC
  0
SECTION
  2
OBJECTS
  0
DICTIONARY
  5
C
100
AcDbDictionary
280
0
281
1
  3
ACAD_GROUP
350
D
  3
ACAD_LAYOUT
350
1A
  3
ACAD_MLINESTYLE
350
17
  3
ACAD_PLOTSETTINGS
350
19
  3
ACAD_PLOTSTYLENAME
350
E
  3
AcDbVariableDictionary
350
EA
  0
DICTIONARY
  5
D
100
AcDbDictionary
280
0
281
1
  0
ACDBDICTIONARYWDFLT
  5
E
100
AcDbDictionary
281
1
  3
Normal
350
F
100
AcDbDictionaryWithDefault
340
F
  0
ACDBPLACEHOLDER
  5
F
  0
DICTIONARY
  5
17
100
AcDbDictionary
280
0
281
1
  3
Standard
350
18
  0
MLINESTYLE
  5
18
100
AcDbMlineStyle
  2
STANDARD
 70
0
  3

 62
256
 51
90.0
 52
90.0
 71
2
 49
0.5
 62
256
  6
BYLAYER
 49
-0.5
 62
256
  6
BYLAYER
  0
DICTIONARY
  5
19
100
AcDbDictionary
280
0
281
1
  0
DICTIONARY
  5
1A
100
AcDbDictionary
281
1
  3
Layout1
350
1E
  3
Layout2
350
26
  3
Model
350
22
  0
LAYOUT
  5
1E
100
AcDbPlotSettings
  1

  2
C:\Program Files\AutoCAD 2002\plotters\DWF ePlot (optimized for plotting).pc3
  4

  6

 40
0.0
 41
0.0
 42
0.0
 43
0.0
 44
0.0
 45
0.0
 46
0.0
 47
0.0
 48
0.0
 49
0.0
140
0.0
141
0.0
142
1.0
143
1.0
 70
688
 72
0
 73
0
 74
5
  7

 75
16
147
1.0
148
0.0
149
0.0
100
AcDbLayout
  1
Layout1
 70
1
 71
1
 10
0.0
 20
0.0
 11
420.0
 21
297.0
 12
0.0
 22
0.0
 32
0.0
 14
100000000000000000000.0
 24
100000000000000000000.0
 34
100000000000000000000.0
 15
-100000000000000000000.0
 25
-100000000000000000000.0
 35
-100000000000000000000.0
146
0.0
 13
0.0
 23
0.0
 33
0.0
 16
1.0
 26
0.0
 36
0.0
 17
0.0
 27
1.0
 37
0.0
 76
0
330
1B
  0
LAYOUT
  5
22
100
AcDbPlotSettings
  1

  2
C:\Program Files\AutoCAD 2002\plotters\DWF ePlot (optimized for plotting).pc3
  4

  6

 40
0.0
 41
0.0
 42
0.0
 43
0.0
 44
0.0
 45
0.0
 46
0.0
 47
0.0
 48
0.0
 49
0.0
140
0.0
141
0.0
142
1.0
143
1.0
 70
1712
 72
0
 73
0
 74
0
  7

 75
0
147
1.0
148
0.0
149
0.0
100
AcDbLayout
  1
Model
 70
1
 71
0
 10
0.0
 20
0.0
 11
12.0
 21
9.0
 12
0.0
 22
0.0
 32
0.0
 14
0.0
 24
0.0
 34
0.0
 15
0.0
 25
0.0
 35
0.0
146
0.0
 13
0.0
 23
0.0
 33
0.0
 16
1.0
 26
0.0
 36
0.0
 17
0.0
 27
1.0
 37
0.0
 76
0
330
1F
  0
LAYOUT
  5
26
100
AcDbPlotSettings
  1

  2
C:\Program Files\AutoCAD 2002\plotters\DWF ePlot (optimized for plotting).pc3
  4

  6

 40
0.0
 41
0.0
 42
0.0
 43
0.0
 44
0.0
 45
0.0
 46
0.0
 47
0.0
 48
0.0
 49
0.0
140
0.0
141
0.0
142
1.0
143
1.0
 70
688
 72
0
 73
0
 74
5
  7

 75
16
147
1.0
148
0.0
149
0.0
100
AcDbLayout
  1
Layout2
 70
1
 71
2
 10
0.0
 20
0.0
 11
12.0
 21
9.0
 12
0.0
 22
0.0
 32
0.0
 14
0.0
 24
0.0
 34
0.0
 15
0.0
 25
0.0
 35
0.0
146
0.0
 13
0.0
 23
0.0
 33
0.0
 16
1.0
 26
0.0
 36
0.0
 17
0.0
 27
1.0
 37
0.0
 76
0
330
23
  0
DICTIONARY
  5
EA
100
AcDbDictionary
281
1
  3
DIMASSOC
350
EC
  3
HIDETEXT
350
EB
  0
DICTIONARYVAR
  5
EB
100
DictionaryVariables
280
0
  1
2
  0
DICTIONARYVAR
  5
EC
100
DictionaryVariables
280
0
  1
1
  0
ENDSEC
  0
EOF
